ISO-10303-21;
HEADER;
FILE_DESCRIPTION (( 'STEP AP203' ),
    '1' );
FILE_NAME ('BK7-LPBSC-12.7-860.STEP',
    '2020-12-22T03:12:10',
    ( '' ),
    ( '' ),
    'SwSTEP 2.0',
    'SolidWorks 2020',
    '' );
FILE_SCHEMA (( 'CONFIG_CONTROL_DESIGN' ));
ENDSEC;

DATA;
#1 = LOCAL_TIME ( 11, 12, 10.00000000000000000, #286 ) ;
#2 = DIRECTION ( 'NONE',  ( 0.000000000000000000, 0.000000000000000000, 1.000000000000000000 ) ) ;
#3 = FACE_OUTER_BOUND ( 'NONE', #101, .T. ) ;
#4 = CARTESIAN_POINT ( 'NONE',  ( -6.350000000000002309, 6.350000000000001421, 6.349999999999999645 ) ) ;
#5 = DIRECTION ( 'NONE',  ( 0.000000000000000000, 1.000000000000000000, 0.000000000000000000 ) ) ;
#6 = VECTOR ( 'NONE', #190, 1000.000000000000000 ) ;
#7 = FACE_OUTER_BOUND ( 'NONE', #257, .T. ) ;
#8 = ORIENTED_EDGE ( 'NONE', *, *, #187, .T. ) ;
#9 = CC_DESIGN_APPROVAL ( #96, ( #248 ) ) ;
#10 = CARTESIAN_POINT ( 'NONE',  ( 6.349999999999996980, 6.349999999999996980, 6.349999999999999645 ) ) ;
#11 = APPROVAL_ROLE ( '' ) ;
#12 = VECTOR ( 'NONE', #117, 1000.000000000000000 ) ;
#13 = APPLICATION_PROTOCOL_DEFINITION ( 'international standard', 'config_control_design', 1994, #40 ) ;
#14 = EDGE_CURVE ( 'NONE', #237, #254, #60, .T. ) ;
#15 = ORIENTED_EDGE ( 'NONE', *, *, #100, .F. ) ;
#16 = APPROVAL_PERSON_ORGANIZATION ( #216, #265, #321 ) ;
#17 = APPROVAL_STATUS ( 'not_yet_approved' ) ;
#18 = EDGE_CURVE ( 'NONE', #72, #32, #263, .T. ) ;
#19 = PLANE ( 'NONE',  #55 ) ;
#20 = VECTOR ( 'NONE', #23, 1000.000000000000000 ) ;
#21 = PRODUCT ( 'BK7-LPBSC-12.7-860', 'BK7-LPBSC-12.7-860', '', ( #173 ) ) ;
#22 = COORDINATED_UNIVERSAL_TIME_OFFSET ( 8, 0, .AHEAD. ) ;
#23 = DIRECTION ( 'NONE',  ( 0.000000000000000000, 0.000000000000000000, -1.000000000000000000 ) ) ;
#24 = ADVANCED_FACE ( 'NONE', ( #308 ), #81, .F. ) ;
#25 = CARTESIAN_POINT ( 'NONE',  ( 0.000000000000000000, 0.000000000000000000, 6.349999999999999645 ) ) ;
#26 = DIRECTION ( 'NONE',  ( -2.220446049250312588E-16, 1.000000000000000000, 0.000000000000000000 ) ) ;
#27 = ADVANCED_FACE ( 'NONE', ( #128 ), #186, .T. ) ;
#28 = LINE ( 'NONE', #165, #306 ) ;
#29 = CARTESIAN_POINT ( 'NONE',  ( 6.349999999999996980, 6.349999999999996980, 6.349999999999999645 ) ) ;
#30 = CARTESIAN_POINT ( 'NONE',  ( 6.349999999999996980, 6.349999999999996980, 6.349999999999999645 ) ) ;
#31 =( LENGTH_UNIT ( ) NAMED_UNIT ( * ) SI_UNIT ( .MILLI., .METRE. ) );
#32 = VERTEX_POINT ( 'NONE', #93 ) ;
#33 = LINE ( 'NONE', #147, #209 ) ;
#34 = PERSON_AND_ORGANIZATION ( #198, #131 ) ;
#35 = DIRECTION ( 'NONE',  ( 6.829619984160658046E-17, -1.000000000000000000, 0.000000000000000000 ) ) ;
#36 = VERTEX_POINT ( 'NONE', #160 ) ;
#37 = VECTOR ( 'NONE', #300, 1000.000000000000000 ) ;
#38 =( NAMED_UNIT ( * ) SI_UNIT ( $, .STERADIAN. ) SOLID_ANGLE_UNIT ( ) );
#39 = SECURITY_CLASSIFICATION_LEVEL ( 'unclassified' ) ;
#40 = APPLICATION_CONTEXT ( 'configuration controlled 3d designs of mechanical parts and assemblies' ) ;
#41 = EDGE_CURVE ( 'NONE', #79, #36, #112, .T. ) ;
#42 = ORIENTED_EDGE ( 'NONE', *, *, #94, .F. ) ;
#43 = DIRECTION ( 'NONE',  ( -0.7071067811865474617, -0.7071067811865474617, 0.000000000000000000 ) ) ;
#44 = CALENDAR_DATE ( 2020, 22, 12 ) ;
#45 = VECTOR ( 'NONE', #279, 1000.000000000000000 ) ;
#46 = CARTESIAN_POINT ( 'NONE',  ( 6.349999999999996980, 6.349999999999996980, 6.349999999999999645 ) ) ;
#47 = VECTOR ( 'NONE', #73, 1000.000000000000114 ) ;
#48 = CARTESIAN_POINT ( 'NONE',  ( 0.000000000000000000, 0.000000000000000000, 6.349999999999999645 ) ) ;
#49 = CARTESIAN_POINT ( 'NONE',  ( 6.349999999999996980, 6.349999999999996980, -6.349999999999999645 ) ) ;
#50 = ORIENTED_EDGE ( 'NONE', *, *, #262, .T. ) ;
#51 = ORIENTED_EDGE ( 'NONE', *, *, #54, .T. ) ;
#52 = FACE_OUTER_BOUND ( 'NONE', #75, .T. ) ;
#53 = PLANE ( 'NONE',  #134 ) ;
#54 = EDGE_CURVE ( 'NONE', #152, #267, #320, .T. ) ;
#55 = AXIS2_PLACEMENT_3D ( 'NONE', #215, #318, #293 ) ;
#56 = ORIENTED_EDGE ( 'NONE', *, *, #169, .T. ) ;
#57 = DATE_AND_TIME ( #206, #83 ) ;
#58 = CARTESIAN_POINT ( 'NONE',  ( 6.349999999999998757, 6.349999999999998757, 6.349999999999999645 ) ) ;
#59 = VERTEX_POINT ( 'NONE', #213 ) ;
#60 = LINE ( 'NONE', #174, #45 ) ;
#61 = APPROVAL_DATE_TIME ( #175, #238 ) ;
#62 = LINE ( 'NONE', #97, #180 ) ;
#63 = APPROVAL_DATE_TIME ( #137, #265 ) ;
#64 = VECTOR ( 'NONE', #113, 1000.000000000000000 ) ;
#65 = DATE_AND_TIME ( #214, #258 ) ;
#66 = LINE ( 'NONE', #226, #37 ) ;
#67 = AXIS2_PLACEMENT_3D ( 'NONE', #30, #125, #199 ) ;
#68 = DIRECTION ( 'NONE',  ( -2.220446049250312588E-16, 1.000000000000000000, 0.000000000000000000 ) ) ;
#69 = FACE_OUTER_BOUND ( 'NONE', #107, .T. ) ;
#70 = CARTESIAN_POINT ( 'NONE',  ( 6.349999999999998757, 6.349999999999998757, 6.349999999999999645 ) ) ;
#71 = CARTESIAN_POINT ( 'NONE',  ( 6.349999999999998757, 6.349999999999998757, 6.349999999999999645 ) ) ;
#72 = VERTEX_POINT ( 'NONE', #136 ) ;
#73 = DIRECTION ( 'NONE',  ( -0.7071067811865474617, -0.7071067811865474617, 0.000000000000000000 ) ) ;
#74 = VECTOR ( 'NONE', #227, 999.9999999999998863 ) ;
#75 = EDGE_LOOP ( 'NONE', ( #178, #144, #8, #51 ) ) ;
#76 = PLANE ( 'NONE',  #67 ) ;
#77 = EDGE_CURVE ( 'NONE', #59, #72, #316, .T. ) ;
#78 = CARTESIAN_POINT ( 'NONE',  ( 0.000000000000000000, 0.000000000000000000, 0.000000000000000000 ) ) ;
#79 = VERTEX_POINT ( 'NONE', #218 ) ;
#80 = PERSON_AND_ORGANIZATION_ROLE ( 'creator' ) ;
#81 = PLANE ( 'NONE',  #296 ) ;
#82 = PERSON_AND_ORGANIZATION_ROLE ( 'creator' ) ;
#83 = LOCAL_TIME ( 11, 12, 10.00000000000000000, #259 ) ;
#84 = EDGE_LOOP ( 'NONE', ( #303, #261, #273, #203 ) ) ;
#85 = AXIS2_PLACEMENT_3D ( 'NONE', #78, #86, #156 ) ;
#86 = DIRECTION ( 'NONE',  ( 0.000000000000000000, 0.000000000000000000, 1.000000000000000000 ) ) ;
#87 = CALENDAR_DATE ( 2020, 22, 12 ) ;
#88 = SHAPE_DEFINITION_REPRESENTATION ( #247, #102 ) ;
#89 = EDGE_LOOP ( 'NONE', ( #177, #166, #191 ) ) ;
#90 = VECTOR ( 'NONE', #43, 1000.000000000000114 ) ;
#91 = CC_DESIGN_PERSON_AND_ORGANIZATION_ASSIGNMENT ( #292, #243, ( #266 ) ) ;
#92 = CARTESIAN_POINT ( 'NONE',  ( 6.349999999999996980, 6.349999999999996980, 6.349999999999999645 ) ) ;
#93 = CARTESIAN_POINT ( 'NONE',  ( 6.349999999999996980, 6.349999999999996980, -6.349999999999999645 ) ) ;
#94 = EDGE_CURVE ( 'NONE', #254, #79, #268, .T. ) ;
#95 = CARTESIAN_POINT ( 'NONE',  ( -6.349999999999998757, -6.349999999999997868, 6.349999999999999645 ) ) ;
#96 = APPROVAL ( #17, 'UNSPECIFIED' ) ;
#97 = CARTESIAN_POINT ( 'NONE',  ( -6.349999999999998757, -6.349999999999997868, -6.349999999999999645 ) ) ;
#98 = DIRECTION ( 'NONE',  ( -1.000000000000000000, 2.903408047666378392E-16, 0.000000000000000000 ) ) ;
#99 = DIRECTION ( 'NONE',  ( -0.7071067811865475727, -0.7071067811865475727, 0.000000000000000000 ) ) ;
#100 = EDGE_CURVE ( 'NONE', #267, #283, #62, .T. ) ;
#101 = EDGE_LOOP ( 'NONE', ( #15, #153, #212, #56 ) ) ;
#102 = ADVANCED_BREP_SHAPE_REPRESENTATION ( 'BK7-LPBSC-12.7-860', ( #155, #151, #85 ), #106 ) ;
#103 = LINE ( 'NONE', #49, #289 ) ;
#104 = ORIENTED_EDGE ( 'NONE', *, *, #14, .F. ) ;
#105 = CALENDAR_DATE ( 2020, 22, 12 ) ;
#106 =( GEOMETRIC_REPRESENTATION_CONTEXT ( 3 ) GLOBAL_UNCERTAINTY_ASSIGNED_CONTEXT ( ( #290 ) ) GLOBAL_UNIT_ASSIGNED_CONTEXT ( ( #31, #280, #38 ) ) REPRESENTATION_CONTEXT ( 'NONE', 'WORKASPACE' ) );
#107 = EDGE_LOOP ( 'NONE', ( #284, #234, #127, #241 ) ) ;
#108 = APPROVAL_ROLE ( '' ) ;
#109 = EDGE_CURVE ( 'NONE', #36, #208, #115, .T. ) ;
#110 = VECTOR ( 'NONE', #207, 1000.000000000000000 ) ;
#111 = ADVANCED_FACE ( 'NONE', ( #244 ), #19, .F. ) ;
#112 = LINE ( 'NONE', #159, #304 ) ;
#113 = DIRECTION ( 'NONE',  ( 1.000000000000000000, -2.903408047666378392E-16, 0.000000000000000000 ) ) ;
#114 = DATE_TIME_ROLE ( 'classification_date' ) ;
#115 = LINE ( 'NONE', #185, #90 ) ;
#116 = DIRECTION ( 'NONE',  ( -0.000000000000000000, 0.000000000000000000, 1.000000000000000000 ) ) ;
#117 = DIRECTION ( 'NONE',  ( 0.000000000000000000, 0.000000000000000000, -1.000000000000000000 ) ) ;
#118 = EDGE_CURVE ( 'NONE', #210, #36, #66, .T. ) ;
#119 = CARTESIAN_POINT ( 'NONE',  ( 0.000000000000000000, 0.000000000000000000, -6.349999999999999645 ) ) ;
#120 = CARTESIAN_POINT ( 'NONE',  ( -6.349999999999999645, -6.350000000000000533, 6.349999999999999645 ) ) ;
#121 = LOCAL_TIME ( 11, 12, 10.00000000000000000, #22 ) ;
#122 = CARTESIAN_POINT ( 'NONE',  ( -6.349999999999998757, -6.349999999999997868, -6.349999999999999645 ) ) ;
#123 = DIRECTION ( 'NONE',  ( 1.000000000000000000, -2.220446049250312588E-16, 0.000000000000000000 ) ) ;
#124 = ORIENTED_EDGE ( 'NONE', *, *, #100, .T. ) ;
#125 = DIRECTION ( 'NONE',  ( -0.7071067811865475727, 0.7071067811865475727, 0.000000000000000000 ) ) ;
#126 = AXIS2_PLACEMENT_3D ( 'NONE', #295, #123, #231 ) ;
#127 = ORIENTED_EDGE ( 'NONE', *, *, #77, .T. ) ;
#128 = FACE_OUTER_BOUND ( 'NONE', #157, .T. ) ;
#129 = ORIENTED_EDGE ( 'NONE', *, *, #14, .T. ) ;
#130 = APPLICATION_PROTOCOL_DEFINITION ( 'international standard', 'config_control_design', 1994, #270 ) ;
#131 = ORGANIZATION ( 'UNSPECIFIED', 'UNSPECIFIED', '' ) ;
#132 = ADVANCED_FACE ( 'NONE', ( #69 ), #161, .F. ) ;
#133 = CC_DESIGN_DATE_AND_TIME_ASSIGNMENT ( #57, #179, ( #248 ) ) ;
#134 = AXIS2_PLACEMENT_3D ( 'NONE', #120, #5, #167 ) ;
#135 = COORDINATED_UNIVERSAL_TIME_OFFSET ( 8, 0, .AHEAD. ) ;
#136 = CARTESIAN_POINT ( 'NONE',  ( 6.349999999999996980, 6.349999999999996980, 6.349999999999999645 ) ) ;
#137 = DATE_AND_TIME ( #44, #121 ) ;
#138 = DIRECTION ( 'NONE',  ( -2.903408047666378392E-16, -1.000000000000000000, 0.000000000000000000 ) ) ;
#139 = CARTESIAN_POINT ( 'NONE',  ( -6.349999999999999645, -6.350000000000000533, -6.349999999999999645 ) ) ;
#140 = ADVANCED_FACE ( 'NONE', ( #195 ), #192, .T. ) ;
#141 = EDGE_LOOP ( 'NONE', ( #240, #42, #104, #276 ) ) ;
#142 = PLANE ( 'NONE',  #253 ) ;
#143 = LINE ( 'NONE', #164, #6 ) ;
#144 = ORIENTED_EDGE ( 'NONE', *, *, #18, .F. ) ;
#145 = PRODUCT_DEFINITION_FORMATION_WITH_SPECIFIED_SOURCE ( 'ANY', '', #21, .NOT_KNOWN. ) ;
#146 = CARTESIAN_POINT ( 'NONE',  ( -6.349999999999999645, -6.350000000000000533, 6.349999999999999645 ) ) ;
#147 = CARTESIAN_POINT ( 'NONE',  ( 6.349999999999996980, 6.349999999999996980, -6.349999999999999645 ) ) ;
#148 = AXIS2_PLACEMENT_3D ( 'NONE', #25, #116, #221 ) ;
#149 = EDGE_LOOP ( 'NONE', ( #197, #204, #302 ) ) ;
#150 = PERSON_AND_ORGANIZATION_ROLE ( 'design_owner' ) ;
#151 = MANIFOLD_SOLID_BREP ( '¾µÏ', #181 ) ;
#152 = VERTEX_POINT ( 'NONE', #298 ) ;
#153 = ORIENTED_EDGE ( 'NONE', *, *, #54, .F. ) ;
#154 = CC_DESIGN_PERSON_AND_ORGANIZATION_ASSIGNMENT ( #34, #150, ( #21 ) ) ;
#155 = MANIFOLD_SOLID_BREP ( 'Í¹Ì¨-À', #201 ) ;
#156 = DIRECTION ( 'NONE',  ( 1.000000000000000000, 0.000000000000000000, 0.000000000000000000 ) ) ;
#157 = EDGE_LOOP ( 'NONE', ( #232, #129, #260 ) ) ;
#158 = CC_DESIGN_DATE_AND_TIME_ASSIGNMENT ( #65, #114, ( #266 ) ) ;
#159 = CARTESIAN_POINT ( 'NONE',  ( 6.349999999999998757, 6.349999999999998757, -6.349999999999999645 ) ) ;
#160 = CARTESIAN_POINT ( 'NONE',  ( 6.349999999999998757, 6.349999999999998757, -6.349999999999999645 ) ) ;
#161 = PLANE ( 'NONE',  #309 ) ;
#162 = CARTESIAN_POINT ( 'NONE',  ( 6.349999999999999645, -6.350000000000000533, 6.349999999999999645 ) ) ;
#163 = LINE ( 'NONE', #4, #12 ) ;
#164 = CARTESIAN_POINT ( 'NONE',  ( -6.349999999999999645, -6.350000000000000533, 6.349999999999999645 ) ) ;
#165 = CARTESIAN_POINT ( 'NONE',  ( -6.349999999999998757, -6.349999999999997868, 6.349999999999999645 ) ) ;
#166 = ORIENTED_EDGE ( 'NONE', *, *, #41, .F. ) ;
#167 = DIRECTION ( 'NONE',  ( 0.000000000000000000, -0.000000000000000000, 1.000000000000000000 ) ) ;
#168 = ORIENTED_EDGE ( 'NONE', *, *, #202, .T. ) ;
#169 = EDGE_CURVE ( 'NONE', #59, #283, #163, .T. ) ;
#170 = VECTOR ( 'NONE', #196, 1000.000000000000000 ) ;
#171 = PLANE ( 'NONE',  #126 ) ;
#172 = ADVANCED_FACE ( 'NONE', ( #249 ), #142, .F. ) ;
#173 = MECHANICAL_CONTEXT ( 'NONE', #40, 'mechanical' ) ;
#174 = CARTESIAN_POINT ( 'NONE',  ( -6.349999999999999645, -6.350000000000000533, 6.349999999999999645 ) ) ;
#175 = DATE_AND_TIME ( #105, #1 ) ;
#176 = AXIS2_PLACEMENT_3D ( 'NONE', #272, #271, #252 ) ;
#177 = ORIENTED_EDGE ( 'NONE', *, *, #109, .F. ) ;
#178 = ORIENTED_EDGE ( 'NONE', *, *, #202, .F. ) ;
#179 = DATE_TIME_ROLE ( 'creation_date' ) ;
#180 = VECTOR ( 'NONE', #68, 1000.000000000000000 ) ;
#181 = CLOSED_SHELL ( 'NONE', ( #278, #205, #132, #140, #256 ) ) ;
#182 = ORIENTED_EDGE ( 'NONE', *, *, #41, .T. ) ;
#183 = CC_DESIGN_PERSON_AND_ORGANIZATION_ASSIGNMENT ( #310, #82, ( #145 ) ) ;
#184 = CARTESIAN_POINT ( 'NONE',  ( 6.349999999999999645, -6.350000000000000533, 6.349999999999999645 ) ) ;
#185 = CARTESIAN_POINT ( 'NONE',  ( 6.349999999999998757, 6.349999999999998757, -6.349999999999999645 ) ) ;
#186 = PLANE ( 'NONE',  #148 ) ;
#187 = EDGE_CURVE ( 'NONE', #72, #152, #251, .T. ) ;
#188 = CC_DESIGN_SECURITY_CLASSIFICATION ( #266, ( #145 ) ) ;
#189 = DIRECTION ( 'NONE',  ( -0.000000000000000000, 0.000000000000000000, 1.000000000000000000 ) ) ;
#190 = DIRECTION ( 'NONE',  ( -0.000000000000000000, -0.000000000000000000, -1.000000000000000000 ) ) ;
#191 = ORIENTED_EDGE ( 'NONE', *, *, #275, .F. ) ;
#192 = PLANE ( 'NONE',  #245 ) ;
#193 = ADVANCED_FACE ( 'NONE', ( #230 ), #53, .F. ) ;
#194 = CARTESIAN_POINT ( 'NONE',  ( 6.349999999999998757, 6.349999999999998757, 6.349999999999999645 ) ) ;
#195 = FACE_OUTER_BOUND ( 'NONE', #149, .T. ) ;
#196 = DIRECTION ( 'NONE',  ( 1.000000000000000000, 0.000000000000000000, 0.000000000000000000 ) ) ;
#197 = ORIENTED_EDGE ( 'NONE', *, *, #187, .F. ) ;
#198 = PERSON ( 'UNSPECIFIED', 'UNSPECIFIED', 'UNSPECIFIED', ('UNSPECIFIED'), ('UNSPECIFIED'), ('UNSPECIFIED') ) ;
#199 = DIRECTION ( 'NONE',  ( 0.7071067811865475727, 0.7071067811865475727, 0.000000000000000000 ) ) ;
#200 = PLANE ( 'NONE',  #176 ) ;
#201 = CLOSED_SHELL ( 'NONE', ( #111, #193, #24, #27, #172 ) ) ;
#202 = EDGE_CURVE ( 'NONE', #32, #267, #103, .T. ) ;
#203 = ORIENTED_EDGE ( 'NONE', *, *, #118, .T. ) ;
#204 = ORIENTED_EDGE ( 'NONE', *, *, #77, .F. ) ;
#205 = ADVANCED_FACE ( 'NONE', ( #3 ), #171, .F. ) ;
#206 = CALENDAR_DATE ( 2020, 22, 12 ) ;
#207 = DIRECTION ( 'NONE',  ( 0.000000000000000000, 0.000000000000000000, -1.000000000000000000 ) ) ;
#208 = VERTEX_POINT ( 'NONE', #225 ) ;
#209 = VECTOR ( 'NONE', #255, 1000.000000000000000 ) ;
#210 = VERTEX_POINT ( 'NONE', #70 ) ;
#211 = COORDINATED_UNIVERSAL_TIME_OFFSET ( 8, 0, .AHEAD. ) ;
#212 = ORIENTED_EDGE ( 'NONE', *, *, #294, .T. ) ;
#213 = CARTESIAN_POINT ( 'NONE',  ( -6.350000000000002309, 6.350000000000001421, 6.349999999999999645 ) ) ;
#214 = CALENDAR_DATE ( 2020, 22, 12 ) ;
#215 = CARTESIAN_POINT ( 'NONE',  ( 6.349999999999998757, 6.349999999999998757, 6.349999999999999645 ) ) ;
#216 = PERSON_AND_ORGANIZATION ( #198, #131 ) ;
#217 = DESIGN_CONTEXT ( 'detailed design', #270, 'design' ) ;
#218 = CARTESIAN_POINT ( 'NONE',  ( 6.349999999999999645, -6.350000000000000533, -6.349999999999999645 ) ) ;
#219 = APPROVAL_STATUS ( 'not_yet_approved' ) ;
#220 = EDGE_CURVE ( 'NONE', #237, #208, #143, .T. ) ;
#221 = DIRECTION ( 'NONE',  ( 1.000000000000000000, 0.000000000000000000, 0.000000000000000000 ) ) ;
#222 = VECTOR ( 'NONE', #274, 1000.000000000000000 ) ;
#223 = CC_DESIGN_PERSON_AND_ORGANIZATION_ASSIGNMENT ( #313, #80, ( #248 ) ) ;
#224 = DIRECTION ( 'NONE',  ( 1.000000000000000000, 0.000000000000000000, 0.000000000000000000 ) ) ;
#225 = CARTESIAN_POINT ( 'NONE',  ( -6.349999999999999645, -6.350000000000000533, -6.349999999999999645 ) ) ;
#226 = CARTESIAN_POINT ( 'NONE',  ( 6.349999999999998757, 6.349999999999998757, 6.349999999999999645 ) ) ;
#227 = DIRECTION ( 'NONE',  ( -0.7071067811865475727, -0.7071067811865475727, 0.000000000000000000 ) ) ;
#228 = ORIENTED_EDGE ( 'NONE', *, *, #118, .F. ) ;
#229 = APPROVAL_PERSON_ORGANIZATION ( #242, #96, #108 ) ;
#230 = FACE_OUTER_BOUND ( 'NONE', #141, .T. ) ;
#231 = DIRECTION ( 'NONE',  ( 0.000000000000000000, 0.000000000000000000, 1.000000000000000000 ) ) ;
#232 = ORIENTED_EDGE ( 'NONE', *, *, #246, .T. ) ;
#233 = LINE ( 'NONE', #194, #47 ) ;
#234 = ORIENTED_EDGE ( 'NONE', *, *, #169, .F. ) ;
#235 = LOCAL_TIME ( 11, 12, 10.00000000000000000, #211 ) ;
#236 = APPROVAL_DATE_TIME ( #277, #96 ) ;
#237 = VERTEX_POINT ( 'NONE', #146 ) ;
#238 = APPROVAL ( #264, 'UNSPECIFIED' ) ;
#239 = PERSON_AND_ORGANIZATION ( #198, #131 ) ;
#240 = ORIENTED_EDGE ( 'NONE', *, *, #275, .T. ) ;
#241 = ORIENTED_EDGE ( 'NONE', *, *, #18, .T. ) ;
#242 = PERSON_AND_ORGANIZATION ( #198, #131 ) ;
#243 = PERSON_AND_ORGANIZATION_ROLE ( 'classification_officer' ) ;
#244 = FACE_OUTER_BOUND ( 'NONE', #84, .T. ) ;
#245 = AXIS2_PLACEMENT_3D ( 'NONE', #48, #2, #26 ) ;
#246 = EDGE_CURVE ( 'NONE', #210, #237, #233, .T. ) ;
#247 = PRODUCT_DEFINITION_SHAPE ( 'NONE', 'NONE',  #248 ) ;
#248 = PRODUCT_DEFINITION ( 'UNKNOWN', '', #145, #217 ) ;
#249 = FACE_OUTER_BOUND ( 'NONE', #89, .T. ) ;
#250 = CARTESIAN_POINT ( 'NONE',  ( -6.350000000000002309, 6.350000000000001421, -6.349999999999999645 ) ) ;
#251 = LINE ( 'NONE', #29, #74 ) ;
#252 = DIRECTION ( 'NONE',  ( -2.220446049250312588E-16, 1.000000000000000000, 0.000000000000000000 ) ) ;
#253 = AXIS2_PLACEMENT_3D ( 'NONE', #119, #189, #224 ) ;
#254 = VERTEX_POINT ( 'NONE', #162 ) ;
#255 = DIRECTION ( 'NONE',  ( 1.000000000000000000, -2.903408047666378392E-16, 0.000000000000000000 ) ) ;
#256 = ADVANCED_FACE ( 'NONE', ( #7 ), #200, .F. ) ;
#257 = EDGE_LOOP ( 'NONE', ( #168, #124, #50 ) ) ;
#258 = LOCAL_TIME ( 11, 12, 10.00000000000000000, #135 ) ;
#259 = COORDINATED_UNIVERSAL_TIME_OFFSET ( 8, 0, .AHEAD. ) ;
#260 = ORIENTED_EDGE ( 'NONE', *, *, #315, .T. ) ;
#261 = ORIENTED_EDGE ( 'NONE', *, *, #220, .F. ) ;
#262 = EDGE_CURVE ( 'NONE', #283, #32, #33, .T. ) ;
#263 = LINE ( 'NONE', #10, #110 ) ;
#264 = APPROVAL_STATUS ( 'not_yet_approved' ) ;
#265 = APPROVAL ( #219, 'UNSPECIFIED' ) ;
#266 = SECURITY_CLASSIFICATION ( '', '', #39 ) ;
#267 = VERTEX_POINT ( 'NONE', #122 ) ;
#268 = LINE ( 'NONE', #184, #287 ) ;
#269 = CC_DESIGN_APPROVAL ( #238, ( #145 ) ) ;
#270 = APPLICATION_CONTEXT ( 'configuration controlled 3d designs of mechanical parts and assemblies' ) ;
#271 = DIRECTION ( 'NONE',  ( 0.000000000000000000, 0.000000000000000000, 1.000000000000000000 ) ) ;
#272 = CARTESIAN_POINT ( 'NONE',  ( 0.000000000000000000, 0.000000000000000000, -6.349999999999999645 ) ) ;
#273 = ORIENTED_EDGE ( 'NONE', *, *, #246, .F. ) ;
#274 = DIRECTION ( 'NONE',  ( -6.829619984160658046E-17, 1.000000000000000000, -0.000000000000000000 ) ) ;
#275 = EDGE_CURVE ( 'NONE', #208, #79, #305, .T. ) ;
#276 = ORIENTED_EDGE ( 'NONE', *, *, #220, .T. ) ;
#277 = DATE_AND_TIME ( #87, #235 ) ;
#278 = ADVANCED_FACE ( 'NONE', ( #52 ), #76, .F. ) ;
#279 = DIRECTION ( 'NONE',  ( 1.000000000000000000, 0.000000000000000000, 0.000000000000000000 ) ) ;
#280 =( NAMED_UNIT ( * ) PLANE_ANGLE_UNIT ( ) SI_UNIT ( $, .RADIAN. ) );
#281 = DIRECTION ( 'NONE',  ( -1.000000000000000000, -6.829619984160658046E-17, 0.000000000000000000 ) ) ;
#282 = PERSON_AND_ORGANIZATION ( #198, #131 ) ;
#283 = VERTEX_POINT ( 'NONE', #250 ) ;
#284 = ORIENTED_EDGE ( 'NONE', *, *, #262, .F. ) ;
#285 = PRODUCT_RELATED_PRODUCT_CATEGORY ( 'detail', '', ( #21 ) ) ;
#286 = COORDINATED_UNIVERSAL_TIME_OFFSET ( 8, 0, .AHEAD. ) ;
#287 = VECTOR ( 'NONE', #288, 1000.000000000000000 ) ;
#288 = DIRECTION ( 'NONE',  ( -0.000000000000000000, -0.000000000000000000, -1.000000000000000000 ) ) ;
#289 = VECTOR ( 'NONE', #99, 999.9999999999998863 ) ;
#290 = UNCERTAINTY_MEASURE_WITH_UNIT (LENGTH_MEASURE( 1.000000000000000082E-05 ), #31, 'distance_accuracy_value', 'NONE');
#291 = DIRECTION ( 'NONE',  ( -6.829619984160658046E-17, 1.000000000000000000, -0.000000000000000000 ) ) ;
#292 = PERSON_AND_ORGANIZATION ( #198, #131 ) ;
#293 = DIRECTION ( 'NONE',  ( 0.7071067811865474617, 0.7071067811865474617, 0.000000000000000000 ) ) ;
#294 = EDGE_CURVE ( 'NONE', #152, #59, #28, .T. ) ;
#295 = CARTESIAN_POINT ( 'NONE',  ( -6.349999999999998757, -6.349999999999997868, 6.349999999999999645 ) ) ;
#296 = AXIS2_PLACEMENT_3D ( 'NONE', #58, #281, #35 ) ;
#297 = ORIENTED_EDGE ( 'NONE', *, *, #94, .T. ) ;
#298 = CARTESIAN_POINT ( 'NONE',  ( -6.349999999999998757, -6.349999999999997868, 6.349999999999999645 ) ) ;
#299 = DIRECTION ( 'NONE',  ( -2.220446049250312588E-16, 1.000000000000000000, 0.000000000000000000 ) ) ;
#300 = DIRECTION ( 'NONE',  ( -0.000000000000000000, -0.000000000000000000, -1.000000000000000000 ) ) ;
#301 = LINE ( 'NONE', #71, #222 ) ;
#302 = ORIENTED_EDGE ( 'NONE', *, *, #294, .F. ) ;
#303 = ORIENTED_EDGE ( 'NONE', *, *, #109, .T. ) ;
#304 = VECTOR ( 'NONE', #291, 1000.000000000000000 ) ;
#305 = LINE ( 'NONE', #139, #170 ) ;
#306 = VECTOR ( 'NONE', #299, 1000.000000000000000 ) ;
#307 = ORIENTED_EDGE ( 'NONE', *, *, #315, .F. ) ;
#308 = FACE_OUTER_BOUND ( 'NONE', #314, .T. ) ;
#309 = AXIS2_PLACEMENT_3D ( 'NONE', #46, #138, #98 ) ;
#310 = PERSON_AND_ORGANIZATION ( #198, #131 ) ;
#311 = CC_DESIGN_APPROVAL ( #265, ( #266 ) ) ;
#312 = CC_DESIGN_PERSON_AND_ORGANIZATION_ASSIGNMENT ( #282, #317, ( #145 ) ) ;
#313 = PERSON_AND_ORGANIZATION ( #198, #131 ) ;
#314 = EDGE_LOOP ( 'NONE', ( #182, #228, #307, #297 ) ) ;
#315 = EDGE_CURVE ( 'NONE', #254, #210, #301, .T. ) ;
#316 = LINE ( 'NONE', #92, #64 ) ;
#317 = PERSON_AND_ORGANIZATION_ROLE ( 'design_supplier' ) ;
#318 = DIRECTION ( 'NONE',  ( 0.7071067811865475727, -0.7071067811865475727, 0.000000000000000000 ) ) ;
#319 = APPROVAL_PERSON_ORGANIZATION ( #239, #238, #11 ) ;
#320 = LINE ( 'NONE', #95, #20 ) ;
#321 = APPROVAL_ROLE ( '' ) ;
ENDSEC;
END-ISO-10303-21;
